  0
SECTION
  2
HEADER
  9
$ACADVER
  1
AC1014
  9
$HANDSEED
  5
FFFF
  9
$MEASUREMENT
 70
     1
  0
ENDSEC
  0
SECTION
  2
TABLES
  0
TABLE
  2
VPORT
  5
8
330
0
100
AcDbSymbolTable
 70
     4
  0
VPORT
  5
2E
330
8
100
AcDbSymbolTableRecord
100
AcDbViewportTableRecord
  2
*ACTIVE
 70
     0
 10
0.0
 20
0.0
 11
1.0
 21
1.0
 12
210.0
 22
148.5
 13
0.0
 23
0.0
 14
10.0
 24
10.0
 15
10.0
 25
10.0
 16
0.0
 26
0.0
 36
1.0
 17
0.0
 27
0.0
 37
0.0
 40
341.0
 41
1.24
 42
50.0
 43
0.0
 44
0.0
 50
0.0
 51
0.0
 71
     0
 72
   100
 73
     1
 74
     3
 75
     0
 76
     0
 77
     0
 78
     0
  0
ENDTAB
  0
TABLE
  2
LTYPE
  5
5
330
0
100
AcDbSymbolTable
 70
     1
  0
LTYPE
  5
14
330
5
100
AcDbSymbolTableRecord
100
AcDbLinetypeTableRecord
  2
BYBLOCK
 70
     0
  3

 72
    65
 73
     0
 40
0.0
  0
LTYPE
  5
15
330
5
100
AcDbSymbolTableRecord
100
AcDbLinetypeTableRecord
  2
BYLAYER
 70
     0
  3

 72
    65
 73
     0
 40
0.0
  0
LTYPE
  5
16
330
5
100
AcDbSymbolTableRecord
100
AcDbLinetypeTableRecord
  2
CONTINUOUS
 70
     0
  3
Solid line
 72
    65
 73
     0
 40
0.0
  0
ENDTAB
  0
TABLE
  2
LAYER
  5
2
100
AcDbSymbolTable
 70
2
  0
LAYER
  5
50
100
AcDbSymbolTableRecord
100
AcDbLayerTableRecord
  2
0
 70
0
  6
CONTINUOUS
  0
LAYER
  5
51
100
AcDbSymbolTableRecord
100
AcDbLayerTableRecord
  2
Layer_1
 70
0
  6
CONTINUOUS
  0
ENDTAB
  0
TABLE
  2
STYLE
  5
3
330
0
100
AcDbSymbolTable
 70
     1
  0
STYLE
  5
11
330
3
100
AcDbSymbolTableRecord
100
AcDbTextStyleTableRecord
  2
STANDARD
 70
     0
 40
0.0
 41
1.0
 50
0.0
 71
     0
 42
2.5
  3
txt
  4

  0
ENDTAB
  0
TABLE
  2
VIEW
  5
6
330
0
100
AcDbSymbolTable
 70
     0
  0
ENDTAB
  0
TABLE
  2
UCS
  5
7
330
0
100
AcDbSymbolTable
 70
     0
  0
ENDTAB
  0
TABLE
  2
APPID
  5
9
330
0
100
AcDbSymbolTable
 70
     2
  0
APPID
  5
12
330
9
100
AcDbSymbolTableRecord
100
AcDbRegAppTableRecord
  2
ACAD
 70
     0
  0
ENDTAB
  0
TABLE
  2
DIMSTYLE
  5
A
330
0
100
AcDbSymbolTable
 70
     1
  0
DIMSTYLE
105
27
330
A
100
AcDbSymbolTableRecord
100
AcDbDimStyleTableRecord
  2
ISO-25
 70
     0
  3

  4

  5

  6

  7

 40
1.0
 41
2.5
 42
0.625
 43
3.75
 44
1.25
 45
0.0
 46
0.0
 47
0.0
 48
0.0
140
2.5
141
2.5
142
0.0
143
0.03937007874016
144
1.0
145
0.0
146
1.0
147
0.625
 71
     0
 72
     0
 73
     0
 74
     0
 75
     0
 76
     0
 77
     1
 78
     8
170
     0
171
     3
172
     1
173
     0
174
     0
175
     0
176
     0
177
     0
178
     0
270
     2
271
     2
272
     2
273
     2
274
     3
340
11
275
     0
280
     0
281
     0
282
     0
283
     0
284
     8
285
     0
286
     0
287
     3
288
     0
  0
ENDTAB
  0
TABLE
  2
BLOCK_RECORD
  5
1
330
0
100
AcDbSymbolTable
 70
     1
  0
BLOCK_RECORD
  5
1F
330
1
100
AcDbSymbolTableRecord
100
AcDbBlockTableRecord
  2
*MODEL_SPACE
  0
BLOCK_RECORD
  5
1B
330
1
100
AcDbSymbolTableRecord
100
AcDbBlockTableRecord
  2
*PAPER_SPACE
  0
ENDTAB
  0
ENDSEC
  0
SECTION
  2
BLOCKS
  0
BLOCK
  5
20
330
1F
100
AcDbEntity
  8
0
100
AcDbBlockBegin
  2
*MODEL_SPACE
 70
     0
 10
0.0
 20
0.0
 30
0.0
  3
*MODEL_SPACE
  1

  0
ENDBLK
  5
21
330
1F
100
AcDbEntity
  8
0
100
AcDbBlockEnd
  0
BLOCK
  5
1C
330
1B
100
AcDbEntity
 67
     1
  8
0
100
AcDbBlockBegin
  2
*PAPER_SPACE
  1

  0
ENDBLK
  5
1D
330
1B
100
AcDbEntity
 67
     1
  8
0
100
AcDbBlockEnd
  0
ENDSEC
  0
SECTION
  2
ENTITIES
  0
LWPOLYLINE
  5
100
100
AcDbEntity
  8
Layer_1
 62
7
100
AcDbPolyline
 90
193
 70
0
 10
26.140833
 20
41.568607
 30
0.0
 10
25.492478
 20
41.454284
 30
0.0
 10
24.994306
 20
41.109996
 30
0.0
 10
24.496492
 20
41.450347
 30
0.0
 10
23.847778
 20
41.559788
 30
0.0
 10
23.356217
 20
41.385425
 30
0.0
 10
22.971953
 20
41.079551
 30
0.0
 10
22.692660
 20
40.672827
 30
0.0
 10
22.516015
 20
40.195913
 30
0.0
 10
22.461375
 20
39.154160
 30
0.0
 10
22.789444
 20
38.199579
 30
0.0
 10
22.448030
 20
37.406012
 30
0.0
 10
22.480764
 20
36.497427
 30
0.0
 10
21.859423
 20
36.085639
 30
0.0
 10
21.528264
 20
35.430274
 30
0.0
 10
20.849167
 20
35.553746
 30
0.0
 10
20.411084
 20
35.412065
 30
0.0
 10
20.055772
 20
35.164139
 30
0.0
 10
19.587986
 20
34.433677
 30
0.0
 10
18.756936
 20
34.375831
 30
0.0
 10
18.381355
 20
34.194206
 30
0.0
 10
18.053403
 20
33.895690
 30
0.0
 10
17.815278
 20
33.251871
 30
0.0
 10
17.085081
 20
33.283369
 30
0.0
 10
16.421806
 20
32.943190
 30
0.0
 10
15.654654
 20
33.428831
 30
0.0
 10
14.799028
 20
33.534093
 30
0.0
 10
14.136517
 20
34.296298
 30
0.0
 10
13.206908
 20
34.771177
 30
0.0
 10
12.705461
 20
34.857308
 30
0.0
 10
12.213463
 20
34.819336
 30
0.0
 10
11.756321
 20
34.639836
 30
0.0
 10
11.359444
 20
34.301385
 30
0.0
 10
11.132606
 20
33.680701
 30
0.0
 10
11.183056
 20
33.075482
 30
0.0
 10
10.635454
 20
32.815549
 30
0.0
 10
10.212917
 20
32.308190
 30
0.0
 10
10.118227
 20
31.794568
 30
0.0
 10
10.191785
 20
31.308475
 30
0.0
 10
10.405674
 20
30.863220
 30
0.0
 10
10.731976
 20
30.472110
 30
0.0
 10
11.610155
 20
29.905557
 30
0.0
 10
12.602986
 20
29.715274
 30
0.0
 10
13.117898
 20
29.026994
 30
0.0
 10
13.917083
 20
28.604024
 30
0.0
 10
13.959174
 20
27.860710
 30
0.0
 10
14.358056
 20
27.245829
 30
0.0
 10
13.917083
 20
26.707843
 30
0.0
 10
13.846155
 20
25.885554
 30
0.0
 10
14.181667
 20
25.155621
 30
0.0
 10
13.744895
 20
24.370226
 30
0.0
 10
13.697442
 20
23.927122
 30
0.0
 10
13.793611
 20
23.462288
 30
0.0
 10
14.234583
 20
22.924302
 30
0.0
 10
13.839772
 20
22.309490
 30
0.0
 10
13.802431
 20
21.566107
 30
0.0
 10
12.998570
 20
21.148858
 30
0.0
 10
12.479514
 20
20.463677
 30
0.0
 10
11.488691
 20
20.269833
 30
0.0
 10
10.613683
 20
19.699907
 30
0.0
 10
10.288919
 20
19.307518
 30
0.0
 10
10.076279
 20
18.861432
 30
0.0
 10
10.003486
 20
18.375093
 30
0.0
 10
10.098264
 20
17.861940
 30
0.0
 10
10.516391
 20
17.354582
 30
0.0
 10
11.059583
 20
17.094649
 30
0.0
 10
11.009134
 20
16.493839
 30
0.0
 10
11.235972
 20
15.877565
 30
0.0
 10
11.632849
 20
15.538737
 30
0.0
 10
12.089990
 20
15.358239
 30
0.0
 10
12.581988
 20
15.318854
 30
0.0
 10
13.083435
 20
15.403367
 30
0.0
 10
14.013045
 20
15.875212
 30
0.0
 10
14.675556
 20
16.636038
 30
0.0
 10
15.535544
 20
16.740501
 30
0.0
 10
16.307153
 20
17.226940
 30
0.0
 10
16.970743
 20
16.889979
 30
0.0
 10
17.700625
 20
16.927079
 30
0.0
 10
17.938750
 20
16.283260
 30
0.0
 10
18.270360
 20
15.981895
 30
0.0
 10
18.650447
 20
15.799216
 30
0.0
 10
19.490972
 20
15.745274
 30
0.0
 10
19.952078
 20
14.917780
 30
0.0
 10
20.324960
 20
14.634748
 30
0.0
 10
20.796250
 20
14.475274
 30
0.0
 10
21.475347
 20
14.598746
 30
0.0
 10
21.806656
 20
13.943464
 30
0.0
 10
22.427847
 20
13.531593
 30
0.0
 10
22.392486
 20
12.624184
 30
0.0
 10
22.727708
 20
11.829440
 30
0.0
 10
22.401492
 20
10.874749
 30
0.0
 10
22.459241
 20
9.832988
 30
0.0
 10
22.637433
 20
9.356095
 30
0.0
 10
22.918013
 20
8.949401
 30
0.0
 10
23.303111
 20
8.643562
 30
0.0
 10
23.794861
 20
8.469232
 30
0.0
 10
24.438807
 20
8.579148
 30
0.0
 10
24.932569
 20
8.919024
 30
0.0
 10
25.429598
 20
8.573228
 30
0.0
 10
26.079097
 20
8.460413
 30
0.0
 10
26.571153
 20
8.635176
 30
0.0
 10
26.956518
 20
8.942071
 30
0.0
 10
27.237300
 20
9.350227
 30
0.0
 10
27.415608
 20
9.828774
 30
0.0
 10
27.473231
 20
10.873553
 30
0.0
 10
27.146250
 20
11.829440
 30
0.0
 10
27.479238
 20
12.624369
 30
0.0
 10
27.437292
 20
13.531593
 30
0.0
 10
28.064389
 20
13.937374
 30
0.0
 10
28.398611
 20
14.589927
 30
0.0
 10
29.077708
 20
14.466454
 30
0.0
 10
29.529433
 20
14.614342
 30
0.0
 10
29.894558
 20
14.874450
 30
0.0
 10
30.365347
 20
15.639440
 30
0.0
 10
31.327774
 20
15.613104
 30
0.0
 10
31.767020
 20
15.792965
 30
0.0
 10
32.146875
 20
16.124510
 30
0.0
 10
32.385000
 20
16.768329
 30
0.0
 10
33.114682
 20
16.733805
 30
0.0
 10
33.778472
 20
17.068190
 30
0.0
 10
34.545821
 20
16.587123
 30
0.0
 10
35.401250
 20
16.486107
 30
0.0
 10
36.063760
 20
15.723904
 30
0.0
 10
36.993370
 20
15.249027
 30
0.0
 10
37.494817
 20
15.162895
 30
0.0
 10
37.986815
 20
15.200867
 30
0.0
 10
38.443956
 20
15.380366
 30
0.0
 10
38.840833
 20
15.718815
 30
0.0
 10
39.070675
 20
16.334911
 30
0.0
 10
39.026042
 20
16.935899
 30
0.0
 10
39.573644
 20
17.195832
 30
0.0
 10
39.996181
 20
17.703190
 30
0.0
 10
40.090870
 20
18.216813
 30
0.0
 10
40.017312
 20
18.702906
 30
0.0
 10
39.803424
 20
19.148161
 30
0.0
 10
39.477121
 20
19.539271
 30
0.0
 10
38.598943
 20
20.105824
 30
0.0
 10
37.606111
 20
20.296107
 30
0.0
 10
37.091199
 20
20.984387
 30
0.0
 10
36.292014
 20
21.407357
 30
0.0
 10
36.249923
 20
22.150671
 30
0.0
 10
35.851042
 20
22.765552
 30
0.0
 10
36.292014
 20
23.303538
 30
0.0
 10
36.389353
 20
23.791418
 30
0.0
 10
36.329972
 20
24.255276
 30
0.0
 10
35.842222
 20
25.067427
 30
0.0
 10
36.280630
 20
25.860970
 30
0.0
 10
36.327329
 20
26.309833
 30
0.0
 10
36.230278
 20
26.778399
 30
0.0
 10
35.789306
 20
27.307565
 30
0.0
 10
36.186873
 20
27.922715
 30
0.0
 10
36.230278
 20
28.665760
 30
0.0
 10
37.029742
 20
29.088508
 30
0.0
 10
37.544375
 20
29.777010
 30
0.0
 10
38.535199
 20
29.970853
 30
0.0
 10
39.410206
 20
30.540779
 30
0.0
 10
39.734970
 20
30.933168
 30
0.0
 10
39.947610
 20
31.379254
 30
0.0
 10
40.020403
 20
31.865593
 30
0.0
 10
39.925625
 20
32.378746
 30
0.0
 10
39.507591
 20
32.886327
 30
0.0
 10
38.964306
 20
33.146038
 30
0.0
 10
39.008151
 20
33.742714
 30
0.0
 10
38.779097
 20
34.354302
 30
0.0
 10
38.382220
 20
34.693132
 30
0.0
 10
37.925079
 20
34.873631
 30
0.0
 10
37.433081
 20
34.913015
 30
0.0
 10
36.931634
 20
34.828503
 30
0.0
 10
36.002024
 20
34.356657
 30
0.0
 10
35.339514
 20
33.595829
 30
0.0
 10
34.484126
 20
33.491091
 30
0.0
 10
33.716736
 20
33.004927
 30
0.0
 10
33.048951
 20
33.342536
 30
0.0
 10
32.314444
 20
33.304788
 30
0.0
 10
32.076319
 20
33.948607
 30
0.0
 10
31.715192
 20
34.270544
 30
0.0
 10
31.298835
 20
34.456248
 30
0.0
 10
30.382986
 20
34.468954
 30
0.0
 10
29.917431
 20
35.180858
 30
0.0
 10
29.568553
 20
35.423656
 30
0.0
 10
29.139444
 20
35.562565
 30
0.0
 10
28.460347
 20
35.439093
 30
0.0
 10
28.126274
 20
36.091732
 30
0.0
 10
27.499028
 20
36.497427
 30
0.0
 10
27.534951
 20
37.404790
 30
0.0
 10
27.199167
 20
38.199579
 30
0.0
 10
27.527526
 20
39.155467
 30
0.0
 10
27.472934
 20
40.200245
 30
0.0
 10
27.296246
 20
40.678791
 30
0.0
 10
27.016876
 20
41.086947
 30
0.0
 10
26.632510
 20
41.393843
 30
0.0
 10
26.140833
 20
41.568607
 30
0.0
 10
26.140833
 20
41.568607
 30
0.0
  0
LWPOLYLINE
  5
101
100
AcDbEntity
  8
Layer_1
 62
7
100
AcDbPolyline
 90
10
 70
0
 10
24.994306
 20
37.899718
 30
0.0
 10
25.479375
 20
37.555760
 30
0.0
 10
25.419269
 20
36.963241
 30
0.0
 10
25.505833
 20
36.373954
 30
0.0
 10
25.047222
 20
36.029996
 30
0.0
 10
24.473958
 20
36.373954
 30
0.0
 10
24.565762
 20
36.963302
 30
0.0
 10
24.509236
 20
37.555760
 30
0.0
 10
24.994306
 20
37.899718
 30
0.0
 10
24.994306
 20
37.899718
 30
0.0
  0
LWPOLYLINE
  5
102
100
AcDbEntity
  8
Layer_1
 62
7
100
AcDbPolyline
 90
22
 70
0
 10
25.082500
 20
33.807496
 30
0.0
 10
25.567586
 20
33.206087
 30
0.0
 10
26.178229
 20
32.787487
 30
0.0
 10
26.847345
 20
32.631947
 30
0.0
 10
27.507847
 20
32.819718
 30
0.0
 10
27.587222
 20
32.563954
 30
0.0
 10
26.667688
 20
32.400222
 30
0.0
 10
25.920347
 20
31.840760
 30
0.0
 10
25.521530
 20
31.220055
 30
0.0
 10
25.408819
 20
30.544302
 30
0.0
 10
25.038403
 20
30.297357
 30
0.0
 10
24.579792
 20
30.544302
 30
0.0
 10
24.465671
 20
31.215508
 30
0.0
 10
24.068264
 20
31.831940
 30
0.0
 10
23.316925
 20
32.393415
 30
0.0
 10
22.392569
 20
32.555135
 30
0.0
 10
22.489583
 20
32.863815
 30
0.0
 10
23.189912
 20
32.580445
 30
0.0
 10
23.910455
 20
32.710428
 30
0.0
 10
24.568791
 20
33.153025
 30
0.0
 10
25.082500
 20
33.807496
 30
0.0
 10
25.082500
 20
33.807496
 30
0.0
  0
LWPOLYLINE
  5
103
100
AcDbEntity
  8
Layer_1
 62
7
100
AcDbPolyline
 90
11
 70
0
 10
35.639375
 20
31.779024
 30
0.0
 10
36.186181
 20
31.532079
 30
0.0
 10
36.133264
 20
30.941177
 30
0.0
 10
35.541245
 20
30.666009
 30
0.0
 10
35.048472
 20
30.244440
 30
0.0
 10
34.431111
 20
30.438468
 30
0.0
 10
34.529878
 20
30.813490
 30
0.0
 10
34.501667
 20
31.196940
 30
0.0
 10
35.108228
 20
31.410192
 30
0.0
 10
35.639375
 20
31.779024
 30
0.0
 10
35.639375
 20
31.779024
 30
0.0
  0
LWPOLYLINE
  5
104
100
AcDbEntity
  8
Layer_1
 62
7
100
AcDbPolyline
 90
9
 70
0
 10
14.499167
 20
31.726107
 30
0.0
 10
14.954745
 20
31.390170
 30
0.0
 10
15.478125
 20
31.170482
 30
0.0
 10
15.504583
 20
30.588399
 30
0.0
 10
14.948958
 20
30.332635
 30
0.0
 10
14.014097
 20
30.879440
 30
0.0
 10
13.952361
 20
31.479163
 30
0.0
 10
14.499167
 20
31.726107
 30
0.0
 10
14.499167
 20
31.726107
 30
0.0
  0
LWPOLYLINE
  5
105
100
AcDbEntity
  8
Layer_1
 62
7
100
AcDbPolyline
 90
23
 70
0
 10
30.444722
 20
31.152843
 30
0.0
 10
30.453528
 20
31.152843
 30
0.0
 10
30.600023
 20
30.388800
 30
0.0
 10
31.130600
 20
29.830648
 30
0.0
 10
31.900314
 20
29.503645
 30
0.0
 10
32.764222
 20
29.433052
 30
0.0
 10
32.434255
 20
28.707846
 30
0.0
 10
32.331631
 20
27.945557
 30
0.0
 10
32.496014
 20
27.252327
 30
0.0
 10
32.967069
 20
26.734302
 30
0.0
 10
32.861236
 20
26.610829
 30
0.0
 10
32.260182
 20
27.333476
 30
0.0
 10
31.397208
 20
27.704440
 30
0.0
 10
30.602880
 20
27.727004
 30
0.0
 10
29.924361
 20
27.431038
 30
0.0
 10
29.492208
 20
27.607427
 30
0.0
 10
29.509847
 20
28.171871
 30
0.0
 10
30.092935
 20
28.609699
 30
0.0
 10
30.462347
 20
29.300760
 30
0.0
 10
30.576602
 20
30.233957
 30
0.0
 10
30.259500
 20
31.117565
 30
0.0
 10
30.444708
 20
31.152843
 30
0.0
 10
30.444722
 20
31.152843
 30
0.0
  0
LWPOLYLINE
  5
106
100
AcDbEntity
  8
Layer_1
 62
7
100
AcDbPolyline
 90
22
 70
0
 10
19.535069
 20
31.144024
 30
0.0
 10
19.879028
 20
31.055829
 30
0.0
 10
19.557515
 20
30.172221
 30
0.0
 10
19.667361
 20
29.239024
 30
0.0
 10
19.985182
 20
28.614480
 30
0.0
 10
20.478750
 20
28.189510
 30
0.0
 10
20.461111
 20
27.730899
 30
0.0
 10
20.020139
 20
27.483954
 30
0.0
 10
19.424270
 20
27.681570
 30
0.0
 10
18.750139
 20
27.642704
 30
0.0
 10
17.883714
 20
27.270895
 30
0.0
 10
17.277292
 20
26.549093
 30
0.0
 10
17.012708
 20
26.831315
 30
0.0
 10
17.530070
 20
27.298130
 30
0.0
 10
17.746833
 20
27.952851
 30
0.0
 10
17.700163
 20
28.695033
 30
0.0
 10
17.427222
 20
29.424232
 30
0.0
 10
18.232768
 20
29.541779
 30
0.0
 10
18.932913
 20
29.881192
 30
0.0
 10
19.407175
 20
30.422072
 30
0.0
 10
19.535069
 20
31.144024
 30
0.0
 10
19.535069
 20
31.144024
 30
0.0
  0
LWPOLYLINE
  5
107
100
AcDbEntity
  8
Layer_1
 62
7
100
AcDbPolyline
 90
24
 70
0
 10
25.082500
 20
27.827913
 30
0.0
 10
25.788056
 20
27.122357
 30
0.0
 10
26.568908
 20
26.603805
 30
0.0
 10
27.560764
 20
26.425621
 30
0.0
 10
27.243264
 20
25.455482
 30
0.0
 10
27.187194
 20
24.536664
 30
0.0
 10
27.516667
 20
23.603399
 30
0.0
 10
26.463738
 20
23.402625
 30
0.0
 10
26.015061
 20
23.155527
 30
0.0
 10
25.664583
 20
22.818468
 30
0.0
 10
25.082500
 20
22.157010
 30
0.0
 10
24.337476
 20
23.032652
 30
0.0
 10
23.865575
 20
23.307729
 30
0.0
 10
23.362708
 20
23.427010
 30
0.0
 10
22.648333
 20
23.594579
 30
0.0
 10
22.965955
 20
24.575976
 30
0.0
 10
22.969390
 20
25.065981
 30
0.0
 10
22.851181
 20
25.517218
 30
0.0
 10
22.604236
 20
26.434440
 30
0.0
 10
23.263985
 20
26.553013
 30
0.0
 10
23.847778
 20
26.822496
 30
0.0
 10
24.530450
 20
27.205759
 30
0.0
 10
25.082500
 20
27.827913
 30
0.0
 10
25.082500
 20
27.827913
 30
0.0
  0
LWPOLYLINE
  5
108
100
AcDbEntity
  8
Layer_1
 62
7
100
AcDbPolyline
 90
23
 70
0
 10
17.162639
 20
23.621038
 30
0.0
 10
17.764651
 20
22.903646
 30
0.0
 10
18.626667
 20
22.536246
 30
0.0
 10
19.389085
 20
22.507388
 30
0.0
 10
20.046597
 20
22.774371
 30
0.0
 10
20.461111
 20
22.483329
 30
0.0
 10
20.399375
 20
22.007079
 30
0.0
 10
19.882440
 20
21.576758
 30
0.0
 10
19.552708
 20
20.931107
 30
0.0
 10
19.438453
 20
19.997911
 30
0.0
 10
19.755556
 20
19.114302
 30
0.0
 10
19.482153
 20
19.052565
 30
0.0
 10
19.300348
 20
19.688269
 30
0.0
 10
18.841836
 20
20.170150
 30
0.0
 10
18.198570
 20
20.481294
 30
0.0
 10
17.462500
 20
20.604788
 30
0.0
 10
17.801410
 20
21.399066
 30
0.0
 10
17.867378
 20
22.222340
 30
0.0
 10
17.609640
 20
22.937983
 30
0.0
 10
17.343517
 20
23.212748
 30
0.0
 10
16.977431
 20
23.409371
 30
0.0
 10
17.162639
 20
23.621038
 30
0.0
 10
17.162639
 20
23.621038
 30
0.0
  0
LWPOLYLINE
  5
109
100
AcDbEntity
  8
Layer_1
 62
7
100
AcDbPolyline
 90
20
 70
0
 10
32.429097
 20
22.827288
 30
0.0
 10
32.276155
 20
22.301932
 30
0.0
 10
32.287141
 20
21.720783
 30
0.0
 10
32.444070
 20
21.132852
 30
0.0
 10
32.728958
 20
20.587149
 30
0.0
 10
32.119090
 20
20.570386
 30
0.0
 10
31.532292
 20
20.424335
 30
0.0
 10
31.019070
 20
20.156844
 30
0.0
 10
30.629931
 20
19.775760
 30
0.0
 10
30.645170
 20
20.278970
 30
0.0
 10
30.532917
 20
20.772357
 30
0.0
 10
30.120110
 20
21.511054
 30
0.0
 10
29.465764
 20
21.954163
 30
0.0
 10
29.421667
 20
22.474510
 30
0.0
 10
29.924375
 20
22.686177
 30
0.0
 10
30.626499
 20
22.353664
 30
0.0
 10
31.458958
 20
22.368677
 30
0.0
 10
31.976228
 20
22.533136
 30
0.0
 10
32.429097
 20
22.827288
 30
0.0
 10
32.429097
 20
22.827288
 30
0.0
  0
LWPOLYLINE
  5
10a
100
AcDbEntity
  8
Layer_1
 62
7
100
AcDbPolyline
 90
10
 70
0
 10
14.940139
 20
19.952149
 30
0.0
 10
15.513403
 20
19.608190
 30
0.0
 10
15.398750
 20
19.008468
 30
0.0
 10
14.851885
 20
18.789084
 30
0.0
 10
14.375694
 20
18.444024
 30
0.0
 10
13.837708
 20
18.690968
 30
0.0
 10
13.890625
 20
19.290690
 30
0.0
 10
14.459641
 20
19.552723
 30
0.0
 10
14.940139
 20
19.952149
 30
0.0
 10
14.940139
 20
19.952149
 30
0.0
  0
LWPOLYLINE
  5
10b
100
AcDbEntity
  8
Layer_1
 62
7
100
AcDbPolyline
 90
21
 70
0
 10
24.967847
 20
19.925705
 30
0.0
 10
25.364722
 20
19.581746
 30
0.0
 10
25.449392
 20
18.855853
 30
0.0
 10
25.858611
 20
18.188274
 30
0.0
 10
26.613951
 20
17.624777
 30
0.0
 10
27.543125
 20
17.465080
 30
0.0
 10
27.481389
 20
17.306330
 30
0.0
 10
26.809607
 20
17.438912
 30
0.0
 10
26.140352
 20
17.233868
 30
0.0
 10
25.541893
 20
16.774012
 30
0.0
 10
25.082500
 20
16.142163
 30
0.0
 10
24.743038
 20
16.702075
 30
0.0
 10
24.286466
 20
17.163644
 30
0.0
 10
23.753866
 20
17.478275
 30
0.0
 10
23.186319
 20
17.597371
 30
0.0
 10
23.637641
 20
17.843201
 30
0.0
 10
24.015347
 20
18.197093
 30
0.0
 10
24.441530
 20
18.890295
 30
0.0
 10
24.518056
 20
19.643482
 30
0.0
 10
24.967847
 20
19.925705
 30
0.0
 10
24.967847
 20
19.925705
 30
0.0
  0
LWPOLYLINE
  5
10c
100
AcDbEntity
  8
Layer_1
 62
7
100
AcDbPolyline
 90
11
 70
0
 10
35.066111
 20
19.881607
 30
0.0
 10
35.572837
 20
19.427294
 30
0.0
 10
36.195000
 20
19.131955
 30
0.0
 10
36.247917
 20
18.541052
 30
0.0
 10
35.701111
 20
18.294107
 30
0.0
 10
35.123714
 20
18.691479
 30
0.0
 10
34.466389
 20
18.902649
 30
0.0
 10
34.342917
 20
19.625843
 30
0.0
 10
34.731451
 20
19.693887
 30
0.0
 10
35.066111
 20
19.881607
 30
0.0
 10
35.066111
 20
19.881607
 30
0.0
  0
LWPOLYLINE
  5
10d
100
AcDbEntity
  8
Layer_1
 62
7
100
AcDbPolyline
 90
10
 70
0
 10
24.985486
 20
14.228329
 30
0.0
 10
25.479375
 20
13.734440
 30
0.0
 10
25.364015
 20
13.109275
 30
0.0
 10
25.417639
 20
12.473260
 30
0.0
 10
24.941389
 20
12.129302
 30
0.0
 10
24.447500
 20
12.473260
 30
0.0
 10
24.506973
 20
13.148006
 30
0.0
 10
24.376944
 20
13.804996
 30
0.0
 10
24.985486
 20
14.228329
 30
0.0
 10
24.985486
 20
14.228329
 30
0.0
  0
ENDSEC
  0
SECTION
  2
OBJECTS
  0
DICTIONARY
  5
C
330
0
100
AcDbDictionary
  3
ACAD_GROUP
350
D
  3
ACAD_MLINESTYLE
350
17
  0
DICTIONARY
  5
D
330
C
100
AcDbDictionary
  0
DICTIONARY
  5
1A
330
C
100
AcDbDictionary
  0
DICTIONARY
  5
17
330
C
100
AcDbDictionary
  3
STANDARD
350
18
  0
DICTIONARY
  5
19
330
C
100
AcDbDictionary
  0
ENDSEC
  0
EOF
